Quando tiver sessenta

Rosa de saron

Riff Intro:

Um... Dois...


C  G/B  Am   Am/G  C  G/B  Am   Am7/G



E|-----3-0-------------3-0--------------0---------------|
B|1---------1-----0--------0---------------1------------|
G|---0---------------0--------------2---------2---0-0-0-|
D|------------------------------------------------------|
A|3------------3----------------3-----------------3-3-3-|
E|------------------------------------------------------|


E|-----3-0-------------3-0--------------0-----------------------|
B|1---------1-----0--------0---------------1-----------1--------|
G|---0---------------0--------------2--------2-----0-2----0-2---|
D|------------------------------------------------------------3-|
A|3------------3----------------3-------------------------------|
E|--------------------------------------------------------------|


F			F7M
Quando tiver sessenta
			C  G/B Am Am7/G
Que os meus olhos funcionem bem
F		 F7M			C G/B
E eu, estando só, busque os meus netos na escola
     Am     Am7/G     F
Que seus sorrisos me lembrem
      	     F7M		  C  G/B  Am
que eles são a fortuna que acumulei
	  Am7/G     F
Nossas visitas ao asilo
F7M 		   	  C     	  G/B Am Am7/G
sejam apenas para ver os quadros dos que lá moraram
F			G
Porque os meus amigos estarão comigo
C			C
Jogando suas redes no rio
FM7			G			     C
Proseando sobre como a nostalgia sempre esteve em alta
		C
Com anos de atraso
F		  FM7			 Am
Mas aí me lembro: Rapaz, você ainda tem trinta e três
   Am/G
E seu mundo ainda é aquele
F			  FM7			C
Onde as filas por um rim dão as suas voltas no continente
Am7/G		    F   C/E
Que anda quente demais
	Am		    Am/G
exceto dentro do carro com vidros fechados
F	     C/E     Dm		       G	C  G/B  Am   Am7/G
Porque, se abertos, tudo pode acabar ali num assalto

C  G/B  Am   Am/G

F		   FM7
Se eu chegar até lá
			C 	G/B	 Am
Que possamos ser mais médicos e menos juízes
Am/G		F
E, ao estarmos num semáforo
	FM7			  C   G/B 	Am
Que não seja pra pedir dinheiro, mas para dar abraços
Am/G		F
Distribuir adesivos dizendo
	FM7		      C
"É Natal, o Rei nasceu e um cobertor também salva!"
	     F		    FM7			      C     G/B Am Am/G
Entenderemos que Deus é Pai e Filho ao mesmo tempo e bastará
F		     G
Perceberemos que são os nossos irmãos
	    C		   C
que estão ali com frio na rua
F		    G			C
Enquanto permanecemos aqui salvos e aquecidos
	      C
Com nossas lareiras
F		  FM7
Mas aí me lembro: Rapaz você está nos trinta
   Am			  Am/G
E grito: "tempo, pare um pouco para eu respirar!
F			FM7		    C		G
Ainda não consegui ser a metade do que deveria ser!"
	       F C/E	 Dm
Então ele me diz: "você continua um sonhador
G		F  	    C/E
Que ainda sonha que tudo mude
Dm	   G G/B  C  G/B  Am   Am7/G
Quando tiver sessenta"

C  G/B  Am   Am7/G  C  G/B  Am  Am/G  C  G/B  Am   C

    Contador de Cliques